  0
SECTION
  2
HEADER
  9
$ACADVER
  1
AC1015
  9
$ACADMAINTVER
 70
     6
  9
$DWGCODEPAGE
  3
ANSI_1252
  9
$INSBASE
 10
0.0
 20
0.0
 30
0.0
  9
$EXTMIN
 10
3.644248259327014
 20
1.840036313990196
 30
0.0
  9
$EXTMAX
 10
601.4095022816741
 20
391.2009234243175
 30
48.0
  9
$LIMMIN
 10
0.0
 20
0.0
  9
$LIMMAX
 10
12.0
 20
9.0
  9
$ORTHOMODE
 70
     0
  9
$REGENMODE
 70
     0
  9
$FILLMODE
 70
     1
  9
$QTEXTMODE
 70
     0
  9
$MIRRTEXT
 70
     0
  9
$LTSCALE
 40
1.0
  9
$ATTMODE
 70
     1
  9
$TEXTSIZE
 40
0.2
  9
$TRACEWID
 40
0.05
  9
$TEXTSTYLE
  7
Standard
  9
$CLAYER
  8
0
  9
$CELTYPE
  6
ByLayer
  9
$CECOLOR
 62
   256
  9
$CELTSCALE
 40
1.0
  9
$DISPSILH
 70
     0
  9
$DIMSCALE
 40
1.0
  9
$DIMASZ
 40
0.18
  9
$DIMEXO
 40
0.0625
  9
$DIMDLI
 40
0.38
  9
$DIMRND
 40
0.0
  9
$DIMDLE
 40
0.0
  9
$DIMEXE
 40
0.18
  9
$DIMTP
 40
0.0
  9
$DIMTM
 40
0.0
  9
$DIMTXT
 40
0.18
  9
$DIMCEN
 40
0.09
  9
$DIMTSZ
 40
0.0
  9
$DIMTOL
 70
     0
  9
$DIMLIM
 70
     0
  9
$DIMTIH
 70
     1
  9
$DIMTOH
 70
     1
  9
$DIMSE1
 70
     0
  9
$DIMSE2
 70
     0
  9
$DIMTAD
 70
     0
  9
$DIMZIN
 70
     0
  9
$DIMBLK
  1

  9
$DIMASO
 70
     1
  9
$DIMSHO
 70
     1
  9
$DIMPOST
  1

  9
$DIMAPOST
  1

  9
$DIMALT
 70
     0
  9
$DIMALTD
 70
     2
  9
$DIMALTF
 40
25.4
  9
$DIMLFAC
 40
1.0
  9
$DIMTOFL
 70
     0
  9
$DIMTVP
 40
0.0
  9
$DIMTIX
 70
     0
  9
$DIMSOXD
 70
     0
  9
$DIMSAH
 70
     0
  9
$DIMBLK1
  1

  9
$DIMBLK2
  1

  9
$DIMSTYLE
  2
Standard
  9
$DIMCLRD
 70
     0
  9
$DIMCLRE
 70
     0
  9
$DIMCLRT
 70
     0
  9
$DIMTFAC
 40
1.0
  9
$DIMGAP
 40
0.09
  9
$DIMJUST
 70
     0
  9
$DIMSD1
 70
     0
  9
$DIMSD2
 70
     0
  9
$DIMTOLJ
 70
     1
  9
$DIMTZIN
 70
     0
  9
$DIMALTZ
 70
     0
  9
$DIMALTTZ
 70
     0
  9
$DIMUPT
 70
     0
  9
$DIMDEC
 70
     4
  9
$DIMTDEC
 70
     4
  9
$DIMALTU
 70
     2
  9
$DIMALTTD
 70
     2
  9
$DIMTXSTY
  7
Standard
  9
$DIMAUNIT
 70
     0
  9
$DIMADEC
 70
     0
  9
$DIMALTRND
 40
0.0
  9
$DIMAZIN
 70
     0
  9
$DIMDSEP
 70
    46
  9
$DIMATFIT
 70
     3
  9
$DIMFRAC
 70
     0
  9
$DIMLDRBLK
  1

  9
$DIMLUNIT
 70
     2
  9
$DIMLWD
 70
    -2
  9
$DIMLWE
 70
    -2
  9
$DIMTMOVE
 70
     0
  9
$LUNITS
 70
     2
  9
$LUPREC
 70
     6
  9
$SKETCHINC
 40
0.1
  9
$FILLETRAD
 40
0.5
  9
$AUNITS
 70
     0
  9
$AUPREC
 70
     0
  9
$MENU
  1
.
  9
$ELEVATION
 40
0.0
  9
$PELEVATION
 40
0.0
  9
$THICKNESS
 40
0.0
  9
$LIMCHECK
 70
     0
  9
$CHAMFERA
 40
0.5
  9
$CHAMFERB
 40
0.5
  9
$CHAMFERC
 40
1.0
  9
$CHAMFERD
 40
0.0
  9
$SKPOLY
 70
     0
  9
$TDCREATE
 40
2452509.655013020
  9
$TDUCREATE
 40
2452509.946679687
  9
$TDUPDATE
 40
2452510.732424942
  9
$TDUUPDATE
 40
2452511.024091609
  9
$TDINDWG
 40
0.0183960880
  9
$TDUSRTIMER
 40
0.0183960880
  9
$USRTIMER
 70
     1
  9
$ANGBASE
 50
0.0
  9
$ANGDIR
 70
     0
  9
$PDMODE
 70
     0
  9
$PDSIZE
 40
0.0
  9
$PLINEWID
 40
0.0
  9
$SPLFRAME
 70
     0
  9
$SPLINETYPE
 70
     6
  9
$SPLINESEGS
 70
     8
  9
$HANDSEED
  5
15E
  9
$SURFTAB1
 70
     6
  9
$SURFTAB2
 70
     6
  9
$SURFTYPE
 70
     6
  9
$SURFU
 70
     6
  9
$SURFV
 70
     6
  9
$UCSBASE
  2

  9
$UCSNAME
  2

  9
$UCSORG
 10
0.0
 20
0.0
 30
0.0
  9
$UCSXDIR
 10
1.0
 20
0.0
 30
0.0
  9
$UCSYDIR
 10
0.0
 20
1.0
 30
0.0
  9
$UCSORTHOREF
  2

  9
$UCSORTHOVIEW
 70
     0
  9
$UCSORGTOP
 10
0.0
 20
0.0
 30
0.0
  9
$UCSORGBOTTOM
 10
0.0
 20
0.0
 30
0.0
  9
$UCSORGLEFT
 10
0.0
 20
0.0
 30
0.0
  9
$UCSORGRIGHT
 10
0.0
 20
0.0
 30
0.0
  9
$UCSORGFRONT
 10
0.0
 20
0.0
 30
0.0
  9
$UCSORGBACK
 10
0.0
 20
0.0
 30
0.0
  9
$PUCSBASE
  2

  9
$PUCSNAME
  2

  9
$PUCSORG
 10
0.0
 20
0.0
 30
0.0
  9
$PUCSXDIR
 10
1.0
 20
0.0
 30
0.0
  9
$PUCSYDIR
 10
0.0
 20
1.0
 30
0.0
  9
$PUCSORTHOREF
  2

  9
$PUCSORTHOVIEW
 70
     0
  9
$PUCSORGTOP
 10
0.0
 20
0.0
 30
0.0
  9
$PUCSORGBOTTOM
 10
0.0
 20
0.0
 30
0.0
  9
$PUCSORGLEFT
 10
0.0
 20
0.0
 30
0.0
  9
$PUCSORGRIGHT
 10
0.0
 20
0.0
 30
0.0
  9
$PUCSORGFRONT
 10
0.0
 20
0.0
 30
0.0
  9
$PUCSORGBACK
 10
0.0
 20
0.0
 30
0.0
  9
$USERI1
 70
     0
  9
$USERI2
 70
     0
  9
$USERI3
 70
     0
  9
$USERI4
 70
     0
  9
$USERI5
 70
     0
  9
$USERR1
 40
1.0
  9
$USERR2
 40
1.0
  9
$USERR3
 40
1.0
  9
$USERR4
 40
1.0
  9
$USERR5
 40
1.0
  9
$WORLDVIEW
 70
     1
  9
$SHADEDGE
 70
     3
  9
$SHADEDIF
 70
    70
  9
$TILEMODE
 70
     1
  9
$MAXACTVP
 70
    64
  9
$PINSBASE
 10
0.0
 20
0.0
 30
0.0
  9
$PLIMCHECK
 70
     0
  9
$PEXTMIN
 10
1.000000000000000E+20
 20
1.000000000000000E+20
 30
1.000000000000000E+20
  9
$PEXTMAX
 10
-1.000000000000000E+20
 20
-1.000000000000000E+20
 30
-1.000000000000000E+20
  9
$PLIMMIN
 10
0.0
 20
0.0
  9
$PLIMMAX
 10
12.0
 20
9.0
  9
$UNITMODE
 70
     0
  9
$VISRETAIN
 70
     1
  9
$PLINEGEN
 70
     0
  9
$PSLTSCALE
 70
     1
  9
$TREEDEPTH
 70
  3020
  9
$CMLSTYLE
  2
Standard
  9
$CMLJUST
 70
     0
  9
$CMLSCALE
 40
1.0
  9
$PROXYGRAPHICS
 70
     1
  9
$MEASUREMENT
 70
     0
  9
$CELWEIGHT
370
    -1
  9
$ENDCAPS
280
     0
  9
$JOINSTYLE
280
     0
  9
$LWDISPLAY
290
     0
  9
$INSUNITS
 70
     1
  9
$HYPERLINKBASE
  1

  9
$STYLESHEET
  1

  9
$XEDIT
290
     1
  9
$CEPSNTYPE
380
     0
  9
$PSTYLEMODE
290
     1
  9
$FINGERPRINTGUID
  2
{537797ED-0A07-4F3E-A620-ABE8E53A165E}
  9
$VERSIONGUID
  2
{201A1864-3827-4EA5-A72B-34656F532D45}
  9
$EXTNAMES
290
     1
  9
$PSVPSCALE
 40
0.0
  9
$OLESTARTUP
290
     0
  0
ENDSEC
  0
SECTION
  2
CLASSES
  0
CLASS
  1
ACDBDICTIONARYWDFLT
  2
AcDbDictionaryWithDefault
  3
AutoCAD 2000
 90
        0
280
     0
281
     0
  0
CLASS
  1
ACDBPLACEHOLDER
  2
AcDbPlaceHolder
  3
AutoCAD 2000
 90
        0
280
     0
281
     0
  0
CLASS
  1
LAYOUT
  2
AcDbLayout
  3
AutoCAD 2000
 90
        0
280
     0
281
     0
  0
ENDSEC
  0
SECTION
  2
TABLES
  0
TABLE
  2
VPORT
  5
8
330
0
100
AcDbSymbolTable
 70
     2
  0
VPORT
  5
15D
330
8
100
AcDbSymbolTableRecord
100
AcDbViewportTableRecord
  2
*Active
 70
     0
 10
0.0
 20
0.0
 11
1.0
 21
1.0
 12
308.6502761695022
 22
196.5204798691538
 13
0.0
 23
0.0
 14
0.5
 24
0.5
 15
0.5
 25
0.5
 16
0.0
 26
0.0
 36
1.0
 17
0.0
 27
0.0
 37
0.0
 40
392.1789393692681
 41
1.988957055214723
 42
50.0
 43
0.0
 44
0.0
 50
0.0
 51
0.0
 71
     0
 72
   100
 73
     1
 74
     0
 75
     0
 76
     0
 77
     0
 78
     0
281
     0
 65
     1
110
0.0
120
0.0
130
0.0
111
1.0
121
0.0
131
0.0
112
0.0
122
1.0
132
0.0
 79
     0
146
0.0
  0
ENDTAB
  0
TABLE
  2
LTYPE
  5
5
330
0
100
AcDbSymbolTable
 70
     1
  0
LTYPE
  5
14
330
5
100
AcDbSymbolTableRecord
100
AcDbLinetypeTableRecord
  2
ByBlock
 70
     0
  3

 72
    65
 73
     0
 40
0.0
  0
LTYPE
  5
15
330
5
100
AcDbSymbolTableRecord
100
AcDbLinetypeTableRecord
  2
ByLayer
 70
     0
  3

 72
    65
 73
     0
 40
0.0
  0
LTYPE
  5
16
330
5
100
AcDbSymbolTableRecord
100
AcDbLinetypeTableRecord
  2
Continuous
 70
     0
  3
Solid line
 72
    65
 73
     0
 40
0.0
  0
ENDTAB
  0
TABLE
  2
LAYER
  5
2
330
0
100
AcDbSymbolTable
 70
     8
  0
LAYER
  5
10
330
2
100
AcDbSymbolTableRecord
100
AcDbLayerTableRecord
  2
0
 70
     0
 62
     7
  6
Continuous
370
    -3
390
F
  0
LAYER
  5
DB
330
2
100
AcDbSymbolTableRecord
100
AcDbLayerTableRecord
  2
DWG-TEXT
 70
     0
 62
     7
  6
Continuous
370
    -3
390
F
  0
LAYER
  5
DC
330
2
100
AcDbSymbolTableRecord
100
AcDbLayerTableRecord
  2
ELEC
 70
     0
 62
     2
  6
Continuous
370
    18
390
F
  0
LAYER
  5
DD
330
2
100
AcDbSymbolTableRecord
100
AcDbLayerTableRecord
  2
SYMBOL
 70
     0
 62
     2
  6
Continuous
370
    13
390
F
  0
LAYER
  5
DE
330
2
100
AcDbSymbolTableRecord
100
AcDbLayerTableRecord
  2
FEEDER
 70
     0
 62
    11
  6
Continuous
370
    -3
390
F
  0
LAYER
  5
DF
330
2
100
AcDbSymbolTableRecord
100
AcDbLayerTableRecord
  2
BUS
 70
     0
 62
     1
  6
Continuous
370
    -3
390
F
  0
LAYER
  5
E0
330
2
100
AcDbSymbolTableRecord
100
AcDbLayerTableRecord
  2
PNLBRD
 70
     0
 62
     2
  6
Continuous
370
    15
390
F
  0
LAYER
  5
E1
330
2
100
AcDbSymbolTableRecord
100
AcDbLayerTableRecord
  2
NOTE
 70
     0
 62
     7
  6
Continuous
370
    -3
390
F
  0
ENDTAB
  0
TABLE
  2
STYLE
  5
3
330
0
100
AcDbSymbolTable
 70
     2
  0
STYLE
  5
11
330
3
100
AcDbSymbolTableRecord
100
AcDbTextStyleTableRecord
  2
Standard
 70
     0
 40
0.0
 41
1.0
 50
0.0
 71
     0
 42
0.2
  3
txt
  4

  0
STYLE
  5
E2
330
3
100
AcDbSymbolTableRecord
100
AcDbTextStyleTableRecord
  2
ROMANS
 70
     0
 40
4.5
 41
1.0
 50
0.0
 71
     0
 42
4.5
  3
simplex.shx
  4
fract.shx
  0
ENDTAB
  0
TABLE
  2
VIEW
  5
6
330
0
100
AcDbSymbolTable
 70
     0
  0
ENDTAB
  0
TABLE
  2
UCS
  5
7
330
0
100
AcDbSymbolTable
 70
     0
  0
ENDTAB
  0
TABLE
  2
APPID
  5
9
330
0
100
AcDbSymbolTable
 70
     3
  0
APPID
  5
12
330
9
100
AcDbSymbolTableRecord
100
AcDbRegAppTableRecord
  2
ACAD
 70
     0
  0
APPID
  5
E5
330
9
100
AcDbSymbolTableRecord
100
AcDbRegAppTableRecord
  2
AcAecLayerStandard
 70
     0
  0
APPID
  5
E6
330
9
100
AcDbSymbolTableRecord
100
AcDbRegAppTableRecord
  2
ACAD_PSEXT
 70
     0
  0
ENDTAB
  0
TABLE
  2
DIMSTYLE
  5
A
330
0
100
AcDbSymbolTable
 70
     2
100
AcDbDimStyleTable
 71
     0
  0
DIMSTYLE
105
27
330
A
100
AcDbSymbolTableRecord
100
AcDbDimStyleTableRecord
  2
Standard
 70
     0
340
11
  0
DIMSTYLE
105
E4
330
A
100
AcDbSymbolTableRecord
100
AcDbDimStyleTableRecord
  2
ARROW
 70
     0
 41
10.0
 42
0.0
 43
0.5
 44
0.25
141
0.09375
340
11
  0
ENDTAB
  0
TABLE
  2
BLOCK_RECORD
  5
1
330
0
100
AcDbSymbolTable
 70
     4
  0
BLOCK_RECORD
  5
1F
330
1
100
AcDbSymbolTableRecord
100
AcDbBlockTableRecord
  2
*Model_Space
340
22
  0
BLOCK_RECORD
  5
1B
330
1
100
AcDbSymbolTableRecord
100
AcDbBlockTableRecord
  2
*Paper_Space
340
1E
  0
BLOCK_RECORD
  5
23
330
1
100
AcDbSymbolTableRecord
100
AcDbBlockTableRecord
  2
*Paper_Space0
340
26
  0
BLOCK_RECORD
  5
2F
330
1
100
AcDbSymbolTableRecord
100
AcDbBlockTableRecord
  2
*X1
340
0
102
{BLKREFS
331
65
102
}
  0
BLOCK_RECORD
  5
64
330
1
100
AcDbSymbolTableRecord
100
AcDbBlockTableRecord
  2
DOT
340
0
102
{BLKREFS
331
F0
331
F1
331
FA
331
104
331
108
331
117
331
11E
331
11F
331
121
331
124
331
126
331
12A
331
14B
102
}
  0
BLOCK_RECORD
  5
69
330
1
100
AcDbSymbolTableRecord
100
AcDbBlockTableRecord
  2
RIS
340
0
102
{BLKREFS
331
145
102
}
  0
ENDTAB
  0
ENDSEC
  0
SECTION
  2
BLOCKS
  0
BLOCK
  5
20
330
1F
100
AcDbEntity
  8
0
100
AcDbBlockBegin
  2
*Model_Space
 70
     0
 10
0.0
 20
0.0
 30
0.0
  3
*Model_Space
  1

  0
ENDBLK
  5
21
330
1F
100
AcDbEntity
  8
0
100
AcDbBlockEnd
  0
BLOCK
  5
1C
330
1B
100
AcDbEntity
 67
     1
  8
0
100
AcDbBlockBegin
  2
*Paper_Space
 70
     0
 10
0.0
 20
0.0
 30
0.0
  3
*Paper_Space
  1

  0
ENDBLK
  5
1D
330
1B
100
AcDbEntity
 67
     1
  8
0
100
AcDbBlockEnd
  0
BLOCK
  5
24
330
23
100
AcDbEntity
  8
0
100
AcDbBlockBegin
  2
*Paper_Space0
 70
     0
 10
0.0
 20
0.0
 30
0.0
  3
*Paper_Space0
  1

  0
ENDBLK
  5
25
330
23
100
AcDbEntity
  8
0
100
AcDbBlockEnd
  0
BLOCK
  5
62
330
2F
100
AcDbEntity
  8
0
100
AcDbBlockBegin
  2
*X1
 70
     1
 10
0.0
 20
0.0
 30
0.0
  3
*X1
  1

  0
LINE
  5
30
330
2F
100
AcDbEntity
  8
0
 62
     0
100
AcDbLine
 10
6.956998999999999
 20
20.20464399999999
 30
0.0
 11
7.045355999999999
 21
20.29300099999999
 31
0.0
  0
LINE
  5
31
330
2F
100
AcDbEntity
  8
0
 62
     0
100
AcDbLine
 10
6.955218999999999
 20
20.20639999999999
 30
0.0
 11
7.043599999999999
 21
20.29478099999999
 31
0.0
  0
LINE
  5
32
330
2F
100
AcDbEntity
  8
0
 62
     0
100
AcDbLine
 10
6.953509999999999
 20
20.208227
 30
0.0
 11
7.041773
 21
20.29649
 31
0.0
  0
LINE
  5
33
330
2F
100
AcDbEntity
  8
0
 62
     0
100
AcDbLine
 10
6.951872999999999
 20
20.210125
 30
0.0
 11
7.039875
 21
20.298127
 31
0.0
  0
LINE
  5
34
330
2F
100
AcDbEntity
  8
0
 62
     0
100
AcDbLine
 10
6.950306999999999
 20
20.212094
 30
0.0
 11
7.037906
 21
20.299693
 31
0.0
  0
LINE
  5
35
330
2F
100
AcDbEntity
  8
0
 62
     0
100
AcDbLine
 10
6.948813
 20
20.214137
 30
0.0
 11
7.035862999999999
 21
20.301187
 31
0.0
  0
LINE
  5
36
330
2F
100
AcDbEntity
  8
0
 62
     0
100
AcDbLine
 10
6.947394
 20
20.21625299999999
 30
0.0
 11
7.033746999999999
 21
20.302606
 31
0.0
  0
LINE
  5
37
330
2F
100
AcDbEntity
  8
0
 62
     0
100
AcDbLine
 10
6.946050999999999
 20
20.21844499999999
 30
0.0
 11
7.031554999999999
 21
20.303949
 31
0.0
  0
LINE
  5
38
330
2F
100
AcDbEntity
  8
0
 62
     0
100
AcDbLine
 10
6.944785
 20
20.220715
 30
0.0
 11
7.029284999999999
 21
20.305215
 31
0.0
  0
LINE
  5
39
330
2F
100
AcDbEntity
  8
0
 62
     0
100
AcDbLine
 10
6.943601
 20
20.22306599999999
 30
0.0
 11
7.026933999999999
 21
20.306399
 31
0.0
  0
LINE
  5
3A
330
2F
100
AcDbEntity
  8
0
 62
     0
100
AcDbLine
 10
6.942501
 20
20.22550199999999
 30
0.0
 11
7.024498
 21
20.30749899999999
 31
0.0
  0
LINE
  5
3B
330
2F
100
AcDbEntity
  8
0
 62
     0
100
AcDbLine
 10
6.941489999999999
 20
20.22802599999999
 30
0.0
 11
7.021974
 21
20.30850999999999
 31
0.0
  0
LINE
  5
3C
330
2F
100
AcDbEntity
  8
0
 62
     0
100
AcDbLine
 10
6.940572999999999
 20
20.23064499999999
 30
0.0
 11
7.019355
 21
20.309427
 31
0.0
  0
LINE
  5
3D
330
2F
100
AcDbEntity
  8
0
 62
     0
100
AcDbLine
 10
6.939754999999999
 20
20.23336299999999
 30
0.0
 11
7.016637
 21
20.310245
 31
0.0
  0
LINE
  5
3E
330
2F
100
AcDbEntity
  8
0
 62
     0
100
AcDbLine
 10
6.939045
 20
20.23618799999999
 30
0.0
 11
7.013811999999999
 21
20.310955
 31
0.0
  0
LINE
  5
3F
330
2F
100
AcDbEntity
  8
0
 62
     0
100
AcDbLine
 10
6.938451999999999
 20
20.239131
 30
0.0
 11
7.010868999999999
 21
20.31154799999999
 31
0.0
  0
LINE
  5
40
330
2F
100
AcDbEntity
  8
0
 62
     0
100
AcDbLine
 10
6.937987999999999
 20
20.24220199999999
 30
0.0
 11
7.007798
 21
20.31201199999999
 31
0.0
  0
LINE
  5
41
330
2F
100
AcDbEntity
  8
0
 62
     0
100
AcDbLine
 10
6.937668
 20
20.245418
 30
0.0
 11
7.004582
 21
20.312332
 31
0.0
  0
LINE
  5
42
330
2F
100
AcDbEntity
  8
0
 62
     0
100
AcDbLine
 10
6.937511999999999
 20
20.248797
 30
0.0
 11
7.001203
 21
20.31248799999999
 31
0.0
  0
LINE
  5
43
330
2F
100
AcDbEntity
  8
0
 62
     0
100
AcDbLine
 10
6.937545
 20
20.252365
 30
0.0
 11
6.997634999999999
 21
20.312455
 31
0.0
  0
LINE
  5
44
330
2F
100
AcDbEntity
  8
0
 62
     0
100
AcDbLine
 10
6.937803999999999
 20
20.256161
 30
0.0
 11
6.993839
 21
20.312196
 31
0.0
  0
LINE
  5
45
330
2F
100
AcDbEntity
  8
0
 62
     0
100
AcDbLine
 10
6.938343999999999
 20
20.26023599999999
 30
0.0
 11
6.989764
 21
20.311656
 31
0.0
  0
LINE
  5
46
330
2F
100
AcDbEntity
  8
0
 62
     0
100
AcDbLine
 10
6.939246999999999
 20
20.264674
 30
0.0
 11
6.985325999999999
 21
20.31075299999999
 31
0.0
  0
LINE
  5
47
330
2F
100
AcDbEntity
  8
0
 62
     0
100
AcDbLine
 10
6.940661
 20
20.269623
 30
0.0
 11
6.980376999999999
 21
20.309339
 31
0.0
  0
LINE
  5
48
330
2F
100
AcDbEntity
  8
0
 62
     0
100
AcDbLine
 10
6.942887999999999
 20
20.275386
 30
0.0
 11
6.974613999999999
 21
20.307112
 31
0.0
  0
LINE
  5
49
330
2F
100
AcDbEntity
  8
0
 62
     0
100
AcDbLine
 10
6.946850999999999
 20
20.282884
 30
0.0
 11
6.967115999999999
 21
20.303149
 31
0.0
  0
LINE
  5
4A
330
2F
100
AcDbEntity
  8
0
 62
     0
100
AcDbLine
 10
6.958848999999999
 20
20.202959
 30
0.0
 11
7.047041
 21
20.29115099999999
 31
0.0
  0
LINE
  5
4B
330
2F
100
AcDbEntity
  8
0
 62
     0
100
AcDbLine
 10
6.960771
 20
20.201345
 30
0.0
 11
7.048655
 21
20.28922899999999
 31
0.0
  0
LINE
  5
4C
330
2F
100
AcDbEntity
  8
0
 62
     0
100
AcDbLine
 10
6.962763999999999
 20
20.19980299999999
 30
0.0
 11
7.050196999999999
 21
20.287236
 31
0.0
  0
LINE
  5
4D
330
2F
100
AcDbEntity
  8
0
 62
     0
100
AcDbLine
 10
6.964831
 20
20.198334
 30
0.0
 11
7.051665999999999
 21
20.285169
 31
0.0
  0
LINE
  5
4E
330
2F
100
AcDbEntity
  8
0
 62
     0
100
AcDbLine
 10
6.966972
 20
20.19694
 30
0.0
 11
7.05306
 21
20.283028
 31
0.0
  0
LINE
  5
4F
330
2F
100
AcDbEntity
  8
0
 62
     0
100
AcDbLine
 10
6.96919
 20
20.195622
 30
0.0
 11
7.054377999999999
 21
20.28080999999999
 31
0.0
  0
LINE
  5
50
330
2F
100
AcDbEntity
  8
0
 62
     0
100
AcDbLine
 10
6.971485999999999
 20
20.194383
 30
0.0
 11
7.055616999999999
 21
20.278514
 31
0.0
  0
LINE
  5
51
330
2F
100
AcDbEntity
  8
0
 62
     0
100
AcDbLine
 10
6.973864999999999
 20
20.193227
 30
0.0
 11
7.056772999999999
 21
20.276135
 31
0.0
  0
LINE
  5
52
330
2F
100
AcDbEntity
  8
0
 62
     0
100
AcDbLine
 10
6.976329999999999
 20
20.192156
 30
0.0
 11
7.057844
 21
20.27366999999999
 31
0.0
  0
LINE
  5
53
330
2F
100
AcDbEntity
  8
0
 62
     0
100
AcDbLine
 10
6.978885
 20
20.191175
 30
0.0
 11
7.058824999999999
 21
20.271115
 31
0.0
  0
LINE
  5
54
330
2F
100
AcDbEntity
  8
0
 62
     0
100
AcDbLine
 10
6.981535
 20
20.19029
 30
0.0
 11
7.059709999999999
 21
20.26846499999999
 31
0.0
  0
LINE
  5
55
330
2F
100
AcDbEntity
  8
0
 62
     0
100
AcDbLine
 10
6.984288
 20
20.18950699999999
 30
0.0
 11
7.060493
 21
20.265712
 31
0.0
  0
LINE
  5
56
330
2F
100
AcDbEntity
  8
0
 62
     0
100
AcDbLine
 10
6.987150999999999
 20
20.188835
 30
0.0
 11
7.061164999999999
 21
20.26284899999999
 31
0.0
  0
LINE
  5
57
330
2F
100
AcDbEntity
  8
0
 62
     0
100
AcDbLine
 10
6.990135
 20
20.188283
 30
0.0
 11
7.061716999999999
 21
20.259865
 31
0.0
  0
LINE
  5
58
330
2F
100
AcDbEntity
  8
0
 62
     0
100
AcDbLine
 10
6.993253
 20
20.187865
 30
0.0
 11
7.062134999999999
 21
20.256747
 31
0.0
  0
LINE
  5
59
330
2F
100
AcDbEntity
  8
0
 62
     0
100
AcDbLine
 10
6.99652
 20
20.18759699999999
 30
0.0
 11
7.062402999999999
 21
20.25348
 31
0.0
  0
LINE
  5
5A
330
2F
100
AcDbEntity
  8
0
 62
     0
100
AcDbLine
 10
6.999958999999999
 20
20.1875
 30
0.0
 11
7.0625
 21
20.25004099999999
 31
0.0
  0
LINE
  5
5B
330
2F
100
AcDbEntity
  8
0
 62
     0
100
AcDbLine
 10
7.003598
 20
20.187604
 30
0.0
 11
7.062395999999999
 21
20.24640199999999
 31
0.0
  0
LINE
  5
5C
330
2F
100
AcDbEntity
  8
0
 62
     0
100
AcDbLine
 10
7.007479
 20
20.187949
 30
0.0
 11
7.062051
 21
20.24252099999999
 31
0.0
  0
LINE
  5
5D
330
2F
100
AcDbEntity
  8
0
 62
     0
100
AcDbLine
 10
7.011663
 20
20.18859799999999
 30
0.0
 11
7.061402
 21
20.238337
 31
0.0
  0
LINE
  5
5E
330
2F
100
AcDbEntity
  8
0
 62
     0
100
AcDbLine
 10
7.01625
 20
20.18965
 30
0.0
 11
7.060349999999999
 21
20.23375
 31
0.0
  0
LINE
  5
5F
330
2F
100
AcDbEntity
  8
0
 62
     0
100
AcDbLine
 10
7.021422
 20
20.191286
 30
0.0
 11
7.058714
 21
20.228578
 31
0.0
  0
LINE
  5
60
330
2F
100
AcDbEntity
  8
0
 62
     0
100
AcDbLine
 10
7.027592
 20
20.19391999999999
 30
0.0
 11
7.056079999999999
 21
20.222408
 31
0.0
  0
LINE
  5
61
330
2F
100
AcDbEntity
  8
0
 62
     0
100
AcDbLine
 10
7.036402999999999
 20
20.199196
 30
0.0
 11
7.050804
 21
20.213597
 31
0.0
  0
ENDBLK
  5
63
330
2F
100
AcDbEntity
  8
0
100
AcDbBlockEnd
  0
BLOCK
  5
67
330
64
100
AcDbEntity
  8
0
100
AcDbBlockBegin
  2
DOT
 70
     0
 10
0.0
 20
0.0
 30
0.0
  3
DOT
  1

  0
INSERT
  5
65
330
64
100
AcDbEntity
  8
SYMBOL
100
AcDbBlockReference
  2
*X1
 10
-3.5
 20
-10.15625
 30
0.0
 41
0.5
 42
0.5
 43
0.5
  0
CIRCLE
  5
66
330
64
100
AcDbEntity
  8
SYMBOL
100
AcDbCircle
 10
0.0
 20
-0.03125
 30
0.0
 40
0.03125
  0
ENDBLK
  5
68
330
64
100
AcDbEntity
  8
0
100
AcDbBlockEnd
  0
BLOCK
  5
6C
330
69
100
AcDbEntity
  8
0
100
AcDbBlockBegin
  2
RIS
 70
     2
 10
0.0
 20
0.0
 30
0.0
  3
RIS
  1

  0
ATTDEF
  5
6A
330
69
100
AcDbEntity
  8
0
100
AcDbText
 10
-0.0666666666666667
 20
0.0499999999999979
 30
0.0
 40
0.1
  1
<>
 72
     4
 11
0.0
 21
0.0999999999999979
 31
0.0
100
AcDbAttributeDefinition
  3

  2
RIS
 70
     4
  0
CIRCLE
  5
6B
330
69
100
AcDbEntity
  8
0
100
AcDbCircle
 10
0.0
 20
0.0999999999999979
 30
0.0
 40
0.0999999999999997
  0
ENDBLK
  5
6D
330
69
100
AcDbEntity
  8
0
100
AcDbBlockEnd
  0
ENDSEC
  0
SECTION
  2
ENTITIES
  0
LINE
  5
EF
330
1F
100
AcDbEntity
  8
FEEDER
100
AcDbLine
 10
457.3023029659466
 20
209.5538485344325
 30
0.0
 11
457.3023029659466
 21
367.2009234243175
 31
0.0
  0
INSERT
  5
F0
330
1F
100
AcDbEntity
  8
FEEDER
100
AcDbBlockReference
  2
DOT
 10
458.531943168477
 20
143.91700676015
 30
0.0
 41
47.99999999999994
 42
48.0
 43
48.0
 50
269.775564189233
  0
INSERT
  5
F1
330
1F
100
AcDbEntity
  8
FEEDER
100
AcDbBlockReference
  2
DOT
 10
458.531943168477
 20
143.91700676015
 30
0.0
 41
47.99999999999994
 42
48.0
 43
48.0
 50
269.775564189233
  0
TEXT
  5
F2
330
1F
100
AcDbEntity
  8
DWG-TEXT
100
AcDbText
 10
424.6442858745026
 20
90.02604556493924
 30
0.0
 40
4.8
  1
SC
  7
ROMANS
100
AcDbText
  0
TEXT
  5
F3
330
1F
100
AcDbEntity
  8
DWG-TEXT
100
AcDbText
 10
423.9633848627277
 20
104.9139668009813
 30
0.0
 40
6.0
  1
22,000 A BUS BRACING.
  7
ROMANS
100
AcDbText
  0
TEXT
  5
F4
330
1F
100
AcDbEntity
  8
DWG-TEXT
100
AcDbText
 10
424.502905531323
 20
114.6803838626738
 30
0.0
 40
6.0
  1
3-WIRE 400 AMP BUS,
  7
ROMANS
100
AcDbText
  0
TEXT
  5
F5
330
1F
100
AcDbEntity
  8
DWG-TEXT
100
AcDbText
 10
423.2573848711731
 20
124.0321738227079
 30
0.0
 40
6.0
  1
120/240 V, 1-PHASE,
  7
ROMANS
100
AcDbText
  0
TEXT
  5
F6
330
1F
100
AcDbEntity
  8
DWG-TEXT
100
AcDbText
 10
424.1709375649138
 20
95.41757226716384
 30
0.0
 40
6.0
  1
I(AVA) =22,000 AMP
  7
ROMANS
100
AcDbText
  0
ARC
  5
F7
330
1F
100
AcDbEntity
  8
SYMBOL
100
AcDbCircle
 10
454.1142375031054
 20
177.2903401169905
 30
0.0
 40
15.0
100
AcDbArc
 50
306.6454618350646
 51
52.90566654335908
  0
LINE
  5
F8
330
1F
100
AcDbEntity
  8
SYMBOL
100
AcDbLine
 10
457.0672088810302
 20
166.4591432776289
 30
0.0
 11
457.0672088810302
 21
143.4582302794935
 31
0.0
  0
TEXT
  5
F9
330
1F
100
AcDbEntity
  8
DWG-TEXT
100
AcDbText
 10
439.3328658562591
 20
179.3153250141006
 30
0.0
 40
4.5
  1
150A
  7
ROMANS
100
AcDbText
  0
INSERT
  5
FA
330
1F
100
AcDbEntity
  8
FEEDER
100
AcDbBlockReference
  2
DOT
 10
458.802291457951
 20
209.5479728336727
 30
0.0
 41
47.99999999999994
 42
48.0
 43
48.0
 50
269.775564189233
  0
LINE
  5
FB
330
1F
100
AcDbEntity
  8
SYMBOL
100
AcDbLine
 10
457.1198456023507
 20
188.1215369563521
 30
0.0
 11
457.1964742977447
 21
207.6838267923777
 31
0.0
  0
LWPOLYLINE
  5
FC
330
1F
100
AcDbEntity
  8
PNLBRD
100
AcDbPolyline
 90
        4
 70
     1
 43
0.0
 10
445.3023029659466
 20
391.2009234243175
 10
469.3023029659466
 20
391.2009234243175
 10
469.3023029659466
 20
367.2009234243175
 10
445.3023029659466
 20
367.2009234243175
  0
LWPOLYLINE
  5
FD
330
1F
100
AcDbEntity
  8
ELEC
100
AcDbPolyline
 90
        2
 70
     0
 43
1.0
 10
409.0997520731284
 20
256.3315081658193
 10
409.0997520731256
 20
84.12578488764376
  0
TEXT
  5
FE
330
1F
100
AcDbEntity
  8
DWG-TEXT
100
AcDbText
 10
462.0347964446141
 20
150.0762181736206
 30
0.0
 40
4.5
  1
2
  7
ROMANS
100
AcDbText
  0
CIRCLE
  5
FF
330
1F
100
AcDbEntity
  8
DWG-TEXT
100
AcDbCircle
 39
48.0
 10
464.3586989511309
 20
152.3360822731693
 30
0.0
 40
4.5
  0
LWPOLYLINE
  5
100
330
1F
100
AcDbEntity
  8
ELEC
100
AcDbPolyline
 90
        2
 70
     0
 43
0.0
 10
549.1926331955678
 20
84.12578488764376
 10
501.2417041313133
 20
84.12578488764376
  0
TEXT
  5
101
330
1F
100
AcDbEntity
  8
DWG-TEXT
100
AcDbText
 10
453.6095777143241
 20
260.3593385875967
 30
0.0
 40
4.5
  1
3#1/0, CU THHN 1 1/2 " C
 50
90.0
 41
0.9
  7
ROMANS
100
AcDbText
  0
TEXT
  5
102
330
1F
100
AcDbEntity
  8
DWG-TEXT
100
AcDbText
 10
446.4781273417215
 20
381.27834034952
 30
0.0
 40
4.8
  1
PANEL
  7
ROMANS
100
AcDbText
  0
TEXT
  5
103
330
1F
100
AcDbEntity
  8
DWG-TEXT
100
AcDbText
 10
452.4095625685673
 20
371.6109080323194
 30
0.0
 40
4.8
  1
"A"
  7
ROMANS
100
AcDbText
  0
INSERT
  5
104
330
1F
100
AcDbEntity
  8
FEEDER
100
AcDbBlockReference
  2
DOT
 10
506.531943168477
 20
143.91700676015
 30
0.0
 41
47.99999999999994
 42
48.0
 43
48.0
 50
269.775564189233
  0
ARC
  5
105
330
1F
100
AcDbEntity
  8
SYMBOL
100
AcDbCircle
 10
502.1142375031054
 20
177.2903401169905
 30
0.0
 40
15.0
100
AcDbArc
 50
306.6454618350646
 51
52.90566654335908
  0
LINE
  5
106
330
1F
100
AcDbEntity
  8
SYMBOL
100
AcDbLine
 10
505.0672088810301
 20
166.4591432776289
 30
0.0
 11
505.0672088810301
 21
143.4582302794935
 31
0.0
  0
TEXT
  5
107
330
1F
100
AcDbEntity
  8
DWG-TEXT
100
AcDbText
 10
487.3328658562591
 20
179.3153250141006
 30
0.0
 40
4.5
  1
150A
  7
ROMANS
100
AcDbText
  0
INSERT
  5
108
330
1F
100
AcDbEntity
  8
FEEDER
100
AcDbBlockReference
  2
DOT
 10
506.8022914579509
 20
209.5479728336727
 30
0.0
 41
47.99999999999994
 42
48.0
 43
48.0
 50
269.775564189233
  0
LINE
  5
109
330
1F
100
AcDbEntity
  8
SYMBOL
100
AcDbLine
 10
505.119845602348
 20
188.1215369563521
 30
0.0
 11
505.1964742977447
 21
207.6838267923777
 31
0.0
  0
TEXT
  5
10A
330
1F
100
AcDbEntity
  8
DWG-TEXT
100
AcDbText
 10
510.0347964446141
 20
150.0762181736206
 30
0.0
 40
4.5
  1
3
  7
ROMANS
100
AcDbText
  0
CIRCLE
  5
10B
330
1F
100
AcDbEntity
  8
DWG-TEXT
100
AcDbCircle
 39
48.0
 10
512.3586989511308
 20
152.3360822731693
 30
0.0
 40
4.5
  0
LWPOLYLINE
  5
10C
330
1F
100
AcDbEntity
  8
ELEC
100
AcDbPolyline
 90
        4
 70
     1
 43
1.0
 10
258.2109221506002
 20
84.12578488764342
 10
258.2109221506002
 20
256.331508165819
 10
600.9095022816741
 20
256.3315081658192
 10
600.9095022816741
 20
84.12578488764365
  0
TEXT
  5
10D
330
1F
100
AcDbEntity
  8
DWG-TEXT
100
AcDbText
 10
441.0529534713609
 20
167.5078961343754
 30
0.0
 40
4.5
  1
2P
  7
ROMANS
100
AcDbText
  0
TEXT
  5
10E
330
1F
100
AcDbEntity
  8
DWG-TEXT
100
AcDbText
 10
489.052953471361
 20
167.5078961343754
 30
0.0
 40
4.5
  1
2P
  7
ROMANS
100
AcDbText
  0
LWPOLYLINE
  5
10F
330
1F
100
AcDbEntity
  8
BUS
100
AcDbPolyline
 90
        2
 70
     0
 43
0.5
 10
579.6693125120578
 20
143.9136618739687
 10
348.3416991929138
 20
143.9136618739687
  0
LINE
  5
110
330
1F
100
AcDbEntity
  8
FEEDER
100
AcDbLine
 10
405.4883386424812
 20
92.86716363815713
 30
0.0
 11
340.8629100218727
 21
92.86716363815713
 31
0.0
  0
LINE
  5
111
330
1F
100
AcDbEntity
  8
FEEDER
100
AcDbLine
 10
405.4883386424812
 20
95.26716363815735
 30
0.0
 11
340.8629100218727
 21
95.26716363815735
 31
0.0
  0
LINE
  5
112
330
1F
100
AcDbEntity
  8
FEEDER
100
AcDbLine
 10
357.1968092678184
 20
93.96856878962609
 30
0.0
 11
357.1968092678184
 21
57.96856878962609
 31
0.0
  0
LINE
  5
113
330
1F
100
AcDbEntity
  8
FEEDER
100
AcDbLine
 10
357.5518934494043
 20
49.38344546245179
 30
0.0
 11
356.8417250862326
 21
49.38344546245179
 31
0.0
  0
LINE
  5
114
330
1F
100
AcDbEntity
  8
FEEDER
100
AcDbLine
 10
359.3273143573337
 20
52.41350346178496
 30
0.0
 11
355.0662987997052
 21
52.41350346178496
 31
0.0
  0
LINE
  5
115
330
1F
100
AcDbEntity
  8
FEEDER
100
AcDbLine
 10
360.7476564622752
 20
55.44356146111858
 30
0.0
 11
354.0010462549448
 21
55.44356146111858
 31
0.0
  0
LINE
  5
116
330
1F
100
AcDbEntity
  8
FEEDER
100
AcDbLine
 10
362.5230773702073
 20
58.4736161076907
 30
0.0
 11
352.2256199684175
 21
58.4736161076907
 31
0.0
  0
INSERT
  5
117
330
1F
100
AcDbEntity
  8
FEEDER
100
AcDbBlockReference
  2
DOT
 10
357.2799276373066
 20
95.46578813238529
 30
0.0
 41
-47.99999999999994
 42
48.0
 43
48.0
 50
0.2244358107667033
  0
LINE
  5
118
330
1F
100
AcDbEntity
  8
FEEDER
100
AcDbLine
 10
389.8646077597072
 20
93.96856878962609
 30
0.0
 11
389.8646077597072
 21
57.96856878962609
 31
0.0
  0
LINE
  5
119
330
1F
100
AcDbEntity
  8
FEEDER
100
AcDbLine
 10
390.2196919412931
 20
49.38344546245179
 30
0.0
 11
389.5095235781214
 21
49.38344546245179
 31
0.0
  0
POINT
  5
11A
330
1F
100
AcDbEntity
  8
FEEDER
100
AcDbPoint
 10
389.8646077597072
 20
49.38344546245452
 30
0.0
  0
LINE
  5
11B
330
1F
100
AcDbEntity
  8
FEEDER
100
AcDbLine
 10
395.1908758620961
 20
58.4736161076907
 30
0.0
 11
384.893418460309
 21
58.4736161076907
 31
0.0
  0
LINE
  5
11C
330
1F
100
AcDbEntity
  8
FEEDER
100
AcDbLine
 10
391.9951128492252
 20
52.41350346178496
 30
0.0
 11
387.734097291594
 21
52.41350346178496
 31
0.0
  0
LINE
  5
11D
330
1F
100
AcDbEntity
  8
FEEDER
100
AcDbLine
 10
393.4154549541667
 20
55.44356146111858
 30
0.0
 11
386.6688447468364
 21
55.44356146111858
 31
0.0
  0
INSERT
  5
11E
330
1F
100
AcDbEntity
  8
FEEDER
100
AcDbBlockReference
  2
DOT
 10
389.9477261291954
 20
95.46578813238529
 30
0.0
 41
-47.99999999999994
 42
48.0
 43
48.0
 50
0.2244358107667033
  0
INSERT
  5
11F
330
1F
100
AcDbEntity
  8
FEEDER
100
AcDbBlockReference
  2
DOT
 10
294.2050464498383
 20
145.413650365971
 30
0.0
 41
-47.99999999999994
 42
48.0
 43
48.0
 50
0.2244358107667033
  0
LINE
  5
120
330
1F
100
AcDbEntity
  8
FEEDER
100
AcDbLine
 10
369.6553371118629
 20
237.2272688144957
 30
0.0
 11
369.6553371118629
 21
195.1910328290243
 31
0.0
  0
INSERT
  5
121
330
1F
100
AcDbEntity
  8
FEEDER
100
AcDbBlockReference
  2
DOT
 10
294.2050464498383
 20
238.7272573064984
 30
0.0
 41
-47.99999999999994
 42
48.0
 43
48.0
 50
0.2244358107667033
  0
LINE
  5
122
330
1F
100
AcDbEntity
  8
FEEDER
100
AcDbLine
 10
294.2109221506002
 20
248.7479731207309
 30
0.0
 11
294.2109221506002
 21
61.02673868551988
 31
0.0
  0
LWPOLYLINE
  5
123
330
1F
100
AcDbEntity
  8
ELEC
100
AcDbPolyline
 90
        2
 70
     0
 43
1.0
 10
330.2109221506002
 20
256.331508165819
 10
330.2109221506002
 20
84.12578488764342
  0
INSERT
  5
124
330
1F
100
AcDbEntity
  8
FEEDER
100
AcDbBlockReference
  2
DOT
 10
369.6494614111038
 20
238.7272573064987
 30
0.0
 41
-47.99999999999994
 42
48.0
 43
48.0
 50
0.2244358107667033
  0
LINE
  5
125
330
1F
100
AcDbEntity
  8
FEEDER
100
AcDbLine
 10
283.9493775499063
 20
237.2272688144957
 30
0.0
 11
395.3530185375616
 21
237.2272688144957
 31
0.0
  0
INSERT
  5
126
330
1F
100
AcDbEntity
  8
FEEDER
100
AcDbBlockReference
  2
DOT
 10
371.1553256038673
 20
143.9077861732085
 30
0.0
 41
47.99999999999994
 42
48.0
 43
48.0
 50
269.775564189233
  0
TEXT
  5
127
330
1F
100
AcDbEntity
  8
DWG-TEXT
100
AcDbText
 10
351.8005905877576
 20
174.6668871441544
 30
0.0
 40
4.5
  1
400A
  7
ROMANS
100
AcDbText
  0
TEXT
  5
128
330
1F
100
AcDbEntity
  8
DWG-TEXT
100
AcDbText
 10
353.5226256319342
 20
164.7845804691914
 30
0.0
 40
4.5
  1
2P
  7
ROMANS
100
AcDbText
  0
ARC
  5
129
330
1F
100
AcDbEntity
  8
SYMBOL
100
AcDbCircle
 10
366.7376199384957
 20
171.1165387062795
 30
0.0
 40
15.0
100
AcDbArc
 50
306.6454618350646
 51
52.90566654335908
  0
INSERT
  5
12A
330
1F
100
AcDbEntity
  8
FEEDER
100
AcDbBlockReference
  2
DOT
 10
371.4256738933413
 20
196.0332067802164
 30
0.0
 41
47.99999999999994
 42
48.0
 43
48.0
 50
269.775564189233
  0
LINE
  5
12B
330
1F
100
AcDbEntity
  8
SYMBOL
100
AcDbLine
 10
369.8198567331351
 20
183.5850215037987
 30
0.0
 11
369.8198567331351
 21
194.1690607389213
 31
0.0
  0
TEXT
  5
12C
330
1F
100
AcDbEntity
  8
DWG-TEXT
100
AcDbText
 10
374.6581788800044
 20
150.066997586679
 30
0.0
 40
4.5
  1
1
  7
ROMANS
100
AcDbText
  0
CIRCLE
  5
12D
330
1F
100
AcDbEntity
  8
DWG-TEXT
100
AcDbCircle
 39
48.0
 10
376.9820813865212
 20
152.3268616862277
 30
0.0
 40
4.5
  0
LINE
  5
12E
330
1F
100
AcDbEntity
  8
SYMBOL
100
AcDbLine
 10
369.6905913164205
 20
162.14110962881
 30
0.0
 11
369.6905913164205
 21
144.3387610352763
 31
0.0
  0
TEXT
  5
12F
330
1F
100
AcDbEntity
  8
DWG-TEXT
100
AcDbText
 10
276.8905876090161
 20
123.0446650738031
 30
0.0
 40
4.5
  1
400 AMP, 120/240V, 1%%C, 3-W 
 50
90.0
  7
ROMANS
 72
     1
 11
276.8905876090161
 21
178.2232365023746
 31
0.0
100
AcDbText
  0
TEXT
  5
130
330
1F
100
AcDbEntity
  8
DWG-TEXT
100
AcDbText
 10
284.3905876090161
 20
134.8710543494999
 30
0.0
 40
4.5
  1
UNDER GROUD PULL SEC.
 50
90.0
  7
ROMANS
 72
     1
 11
284.3905876090161
 21
178.5853400637856
 31
0.0
100
AcDbText
  0
TEXT
  5
131
330
1F
100
AcDbEntity
  8
DWG-TEXT
100
AcDbText
 10
108.6710871462053
 20
115.8012456377774
 30
0.0
 40
4.5
  1
UTILITY XFMR 
  7
ROMANS
 72
     1
 11
133.5282300033481
 21
115.8012456377774
 31
0.0
100
AcDbText
  0
TEXT
  5
132
330
1F
100
AcDbEntity
  8
DWG-TEXT
100
AcDbText
 10
114.3903335647578
 20
108.3012456377774
 30
0.0
 40
4.5
  1
VAULT WITH
  7
ROMANS
 72
     1
 11
133.8903335647578
 21
108.3012456377774
 31
0.0
100
AcDbText
  0
LWPOLYLINE
  5
133
330
1F
100
AcDbEntity
  8
FEEDER
100
AcDbPolyline
 90
        5
 70
     1
 43
0.0
 10
160.0939081620822
 20
110.1629647170133
 10
160.0939081620822
 20
124.6421795613486
 10
102.9061784591854
 20
124.6421795613486
 10
102.9061784591854
 20
87.96149887721226
 10
160.0939081620822
 20
87.96149887721226
  0
LINE
  5
134
330
1F
100
AcDbEntity
  8
FEEDER
100
AcDbLine
 10
149.0899782180572
 20
87.96149887721226
 30
0.0
 11
149.0899782180572
 21
61.02673868552
 31
0.0
  0
TEXT
  5
135
330
1F
100
AcDbEntity
  8
DWG-TEXT
100
AcDbText
 10
110.2117621361863
 20
100.8421888056187
 30
0.0
 40
4.5
  1
TRANSFORMER
  7
ROMANS
 72
     1
 11
133.8903335647578
 21
100.8421888056187
 31
0.0
100
AcDbText
  0
TEXT
  5
136
330
1F
100
AcDbEntity
  8
DWG-TEXT
100
AcDbText
 10
133.7739225716941
 20
93.40917597513266
 30
0.0
 40
4.5
  1
.
  7
ROMANS
 72
     1
 11
133.9882082859799
 21
93.40917597513266
 31
0.0
100
AcDbText
  0
TEXT
  5
137
330
1F
100
AcDbEntity
  8
DWG-TEXT
100
AcDbText
 10
177.8452333155283
 20
62.80422879222641
 30
0.0
 40
4.5
  1
(2) 4"PVC W/PULL STRING
  7
ROMANS
 72
     1
 11
223.809519029814
 21
62.80422879222641
 31
0.0
100
AcDbText
  0
LINE
  5
138
330
1F
100
AcDbEntity
  8
FEEDER
100
AcDbLine
 10
294.2109221506002
 20
61.02673868552023
 30
0.0
 11
149.0899782180572
 21
61.02673868552
 31
0.0
  0
TEXT
  5
139
330
1F
100
AcDbEntity
  8
DWG-TEXT
100
AcDbText
 10
209.269658960889
 20
30.60739891188046
 30
0.0
 40
4.5
  1
1 # 1/0, CU, 3/4"C
  7
ROMANS
100
AcDbText
  0
TEXT
  5
13A
330
1F
100
AcDbEntity
  8
DWG-TEXT
100
AcDbText
 10
210.1700682159339
 20
15.60739891188046
 30
0.0
 40
4.5
  1
WATER PIPE WITHIN  
  7
ROMANS
100
AcDbText
  0
TEXT
  5
13B
330
1F
100
AcDbEntity
  8
DWG-TEXT
100
AcDbText
 10
210.8513260228796
 20
23.10739891188046
 30
0.0
 40
4.5
  1
TO BLDG MAIN COLD
  7
ROMANS
100
AcDbText
  0
LINE
  5
13C
330
1F
100
AcDbEntity
  8
DWG-TEXT
100
AcDbLine
 10
290.6001011576604
 20
41.12786505935554
 30
0.0
 11
290.6001011576604
 21
3.27257514763886
 31
0.0
  0
LEADER
  5
13D
330
1F
100
AcDbEntity
  8
DWG-TEXT
100
AcDbLeader
  3
ARROW
 76
     3
 10
357.216272287032
 20
74.30664831701363
 30
0.0
 10
316.4468828160102
 20
21.75918447476789
 30
0.0
 10
290.1701935984724
 20
21.75918447476789
 30
0.0
1001
ACAD
1000
DSTYLE
1002
{
1070
     5
1000

1070
    40
1040
1.0
1002
}
  0
TEXT
  5
13E
330
1F
100
AcDbEntity
  8
DWG-TEXT
100
AcDbText
 10
457.3105949292616
 20
6.589622322046864
 30
0.0
 40
4.5
  1
NEC SEC. 250-83(c)
  7
ROMANS
100
AcDbText
  0
TEXT
  5
13F
330
1F
100
AcDbEntity
  8
DWG-TEXT
100
AcDbText
 10
457.7677251217733
 20
21.58962232204686
 30
0.0
 40
4.5
  1
TO BLDG GROUND
  7
ROMANS
100
AcDbText
  0
TEXT
  5
140
330
1F
100
AcDbEntity
  8
DWG-TEXT
100
AcDbText
 10
457.8344139501364
 20
14.08962232204686
 30
0.0
 40
4.5
  1
ELECTRODE AS PER 
  7
ROMANS
100
AcDbText
  0
LINE
  5
141
330
1F
100
AcDbEntity
  8
DWG-TEXT
100
AcDbLine
 10
455.0225247477124
 20
39.69532622570676
 30
0.0
 11
455.0225247477124
 21
1.840036313990196
 31
0.0
  0
TEXT
  5
142
330
1F
100
AcDbEntity
  8
DWG-TEXT
100
AcDbText
 10
456.7423244299138
 20
29.08962232204686
 30
0.0
 40
4.5
  1
1 # 1/0, CU, 3/4"C
  7
ROMANS
100
AcDbText
  0
LEADER
  5
143
330
1F
100
AcDbEntity
  8
DWG-TEXT
100
AcDbLeader
  3
ARROW
 76
     3
 10
389.1349763773218
 20
74.30664831701363
 30
0.0
 10
429.9043658483437
 20
21.75918447476789
 30
0.0
 10
456.1810550658815
 20
21.75918447476789
 30
0.0
211
-1.0
221
0.0
231
0.0
1001
ACAD
1000
DSTYLE
1002
{
1070
     5
1000

1070
    40
1040
1.0
1002
}
  0
TEXT
  5
144
330
1F
100
AcDbEntity
  8
NOTE
100
AcDbText
 10
376.7562223400132
 20
224.2084323759216
 30
0.0
 40
6.0
  1
C.T.
100
AcDbText
  0
INSERT
  5
145
330
1F
100
AcDbEntity
  8
SYMBOL
100
AcDbBlockReference
 66
     1
  2
RIS
 10
381.8629882168693
 20
211.3087497180872
 30
0.0
 41
48.0
 42
48.0
 43
48.0
  0
ATTRIB
  5
146
330
145
100
AcDbEntity
  8
0
100
AcDbText
 10
380.2629882168693
 20
213.7087497180869
 30
0.0
 40
4.8
  1
K
 72
     4
 11
381.8629882168693
 21
216.1087497180869
 31
0.0
100
AcDbAttribute
  2
RIS
 70
     4
  0
SEQEND
  5
147
330
145
100
AcDbEntity
  8
SYMBOL
  0
LINE
  5
148
330
1F
100
AcDbEntity
  8
SYMBOL
100
AcDbLine
 10
369.6771981992001
 20
216.1087497180869
 30
0.0
 11
377.0629882168682
 21
216.1087497180869
 31
0.0
  0
ARC
  5
149
330
1F
100
AcDbEntity
  8
SYMBOL
100
AcDbCircle
 10
369.6771981992001
 20
210.3487497180874
 30
0.0
 40
5.759999999999962
100
AcDbArc
 50
90.0
 51
270.0
  0
ARC
  5
14A
330
1F
100
AcDbEntity
  8
SYMBOL
100
AcDbCircle
 10
369.6771981992001
 20
221.8687497180864
 30
0.0
 40
5.759999999999962
100
AcDbArc
 50
90.0
 51
270.0
  0
INSERT
  5
14B
330
1F
100
AcDbEntity
  8
FEEDER
100
AcDbBlockReference
  2
DOT
 10
554.531943168477
 20
143.91700676015
 30
0.0
 41
47.99999999999994
 42
48.0
 43
48.0
 50
269.775564189233
  0
LINE
  5
14C
330
1F
100
AcDbEntity
  8
FEEDER
100
AcDbLine
 10
505.3023029659466
 20
209.5538485344325
 30
0.0
 11
505.3023029659466
 21
367.2009234243175
 31
0.0
  0
LWPOLYLINE
  5
14D
330
1F
100
AcDbEntity
  8
PNLBRD
100
AcDbPolyline
 90
        4
 70
     1
 43
0.0
 10
493.3023029659466
 20
391.2009234243175
 10
517.3023029659466
 20
391.2009234243175
 10
517.3023029659466
 20
367.2009234243175
 10
493.3023029659466
 20
367.2009234243175
  0
TEXT
  5
14E
330
1F
100
AcDbEntity
  8
DWG-TEXT
100
AcDbText
 10
494.4781273417215
 20
381.27834034952
 30
0.0
 40
4.8
  1
PANEL
  7
ROMANS
100
AcDbText
  0
TEXT
  5
14F
330
1F
100
AcDbEntity
  8
DWG-TEXT
100
AcDbText
 10
498.5521789872523
 20
371.6109080323194
 30
0.0
 40
4.8
  1
"B"
  7
ROMANS
100
AcDbText
  0
LINE
  5
150
330
1F
100
AcDbEntity
  8
FEEDER
100
AcDbLine
 10
113.9101084032104
 20
87.96149887721226
 30
0.0
 11
113.9101084032131
 21
61.02673868552
 31
0.0
  0
TEXT
  5
151
330
1F
100
AcDbEntity
  8
DWG-TEXT
100
AcDbText
 10
13.78272744977865
 20
62.80422879222641
 30
0.0
 40
4.5
  1
(2) 4"PVC W/PULL STRING
  7
ROMANS
 72
     1
 11
59.74701316406435
 21
62.80422879222641
 31
0.0
100
AcDbText
  0
LINE
  5
152
330
1F
100
AcDbEntity
  8
FEEDER
100
AcDbLine
 10
113.9101084032131
 20
61.02673868552
 30
0.0
 11
3.644248259327014
 21
61.02673868551988
 31
0.0
  0
TEXT
  5
153
330
1F
100
AcDbEntity
  8
DWG-TEXT
100
AcDbText
 10
24.81844173549293
 20
55.3921057216707
 30
0.0
 40
4.5
  1
TO PROPERTY LINE 
  7
ROMANS
 72
     1
 11
59.74701316406435
 21
55.3921057216707
 31
0.0
100
AcDbText
  0
TEXT
  5
154
330
1F
100
AcDbEntity
  8
DWG-TEXT
100
AcDbText
 10
335.5696434448959
 20
260.5547086532991
 30
0.0
 40
6.0
  1
[N] MSA
  7
ROMANS
100
AcDbText
  0
TEXT
  5
155
330
1F
100
AcDbEntity
  8
DWG-TEXT
100
AcDbText
 10
501.6095777143241
 20
260.3593385875967
 30
0.0
 40
4.5
  1
3#1/0, CU THHN 1 1/2 " C
 50
90.0
 41
0.9
  7
ROMANS
100
AcDbText
  0
TEXT
  5
156
330
1F
100
AcDbEntity
  8
DWG-TEXT
100
AcDbText
 10
210.1700682159339
 20
8.04570088348106
 30
0.0
 40
4.5
  1
5' OF PROPERTY LINE.
  7
ROMANS
100
AcDbText
  0
ENDSEC
  0
SECTION
  2
OBJECTS
  0
DICTIONARY
  5
C
330
0
100
AcDbDictionary
281
     1
  3
ACAD_GROUP
350
D
  3
ACAD_LAYOUT
350
1A
  3
ACAD_MLINESTYLE
350
17
  3
ACAD_PLOTSETTINGS
350
19
  3
ACAD_PLOTSTYLENAME
350
E
  0
DICTIONARY
  5
D
102
{ACAD_REACTORS
330
C
102
}
330
C
100
AcDbDictionary
281
     1
  0
DICTIONARY
  5
1A
102
{ACAD_REACTORS
330
C
102
}
330
C
100
AcDbDictionary
281
     1
  3
Layout1
350
1E
  3
Layout2
350
26
  3
Model
350
22
  0
DICTIONARY
  5
17
102
{ACAD_REACTORS
330
C
102
}
330
C
100
AcDbDictionary
281
     1
  3
Standard
350
18
  0
DICTIONARY
  5
19
102
{ACAD_REACTORS
330
C
102
}
330
C
100
AcDbDictionary
281
     1
  0
ACDBDICTIONARYWDFLT
  5
E
102
{ACAD_REACTORS
330
C
102
}
330
C
100
AcDbDictionary
281
     1
  3
Normal
350
F
100
AcDbDictionaryWithDefault
340
F
  0
LAYOUT
  5
1E
102
{ACAD_REACTORS
330
1A
102
}
330
1A
100
AcDbPlotSettings
  1

  2
C:\Program Files\ACAD2000\plotters\DWF Classic.pc3
  4

  6

 40
0.0
 41
0.0
 42
0.0
 43
0.0
 44
0.0
 45
0.0
 46
0.0
 47
0.0
 48
0.0
 49
0.0
140
0.0
141
0.0
142
1.0
143
1.0
 70
   688
 72
     0
 73
     0
 74
     5
  7

 75
    16
147
1.0
148
0.0
149
0.0
100
AcDbLayout
  1
Layout1
 70
     1
 71
     1
 10
0.0
 20
0.0
 11
12.0
 21
9.0
 12
0.0
 22
0.0
 32
0.0
 14
1.000000000000000E+20
 24
1.000000000000000E+20
 34
1.000000000000000E+20
 15
-1.000000000000000E+20
 25
-1.000000000000000E+20
 35
-1.000000000000000E+20
146
0.0
 13
0.0
 23
0.0
 33
0.0
 16
1.0
 26
0.0
 36
0.0
 17
0.0
 27
1.0
 37
0.0
 76
     0
330
1B
  0
LAYOUT
  5
26
102
{ACAD_REACTORS
330
1A
102
}
330
1A
100
AcDbPlotSettings
  1

  2
C:\Program Files\ACAD2000\plotters\DWF Classic.pc3
  4

  6

 40
0.0
 41
0.0
 42
0.0
 43
0.0
 44
0.0
 45
0.0
 46
0.0
 47
0.0
 48
0.0
 49
0.0
140
0.0
141
0.0
142
1.0
143
1.0
 70
   688
 72
     0
 73
     0
 74
     5
  7

 75
    16
147
1.0
148
0.0
149
0.0
100
AcDbLayout
  1
Layout2
 70
     1
 71
     2
 10
0.0
 20
0.0
 11
12.0
 21
9.0
 12
0.0
 22
0.0
 32
0.0
 14
0.0
 24
0.0
 34
0.0
 15
0.0
 25
0.0
 35
0.0
146
0.0
 13
0.0
 23
0.0
 33
0.0
 16
1.0
 26
0.0
 36
0.0
 17
0.0
 27
1.0
 37
0.0
 76
     0
330
23
  0
LAYOUT
  5
22
102
{ACAD_REACTORS
330
1A
102
}
330
1A
100
AcDbPlotSettings
  1

  2
C:\Program Files\ACAD2000\plotters\DWF Classic.pc3
  4

  6

 40
0.0
 41
0.0
 42
0.0
 43
0.0
 44
0.0
 45
0.0
 46
0.0
 47
0.0
 48
0.0
 49
0.0
140
0.0
141
0.0
142
1.0
143
1.0
 70
  1712
 72
     0
 73
     0
 74
     0
  7

 75
     0
147
1.0
148
0.0
149
0.0
100
AcDbLayout
  1
Model
 70
     1
 71
     0
 10
0.0
 20
0.0
 11
12.0
 21
9.0
 12
0.0
 22
0.0
 32
0.0
 14
0.0
 24
0.0
 34
0.0
 15
0.0
 25
0.0
 35
0.0
146
0.0
 13
0.0
 23
0.0
 33
0.0
 16
1.0
 26
0.0
 36
0.0
 17
0.0
 27
1.0
 37
0.0
 76
     0
330
1F
  0
MLINESTYLE
  5
18
102
{ACAD_REACTORS
330
17
102
}
330
17
100
AcDbMlineStyle
  2
STANDARD
 70
     0
  3

 62
   256
 51
90.0
 52
90.0
 71
     2
 49
0.5
 62
   256
  6
BYLAYER
 49
-0.5
 62
   256
  6
BYLAYER
  0
ACDBPLACEHOLDER
  5
F
102
{ACAD_REACTORS
330
E
102
}
330
E
  0
ENDSEC
  0
EOF
